lunes, 31 de marzo de 2008

La Defensa de Buenos Aires

Posteo esta canción compuesta e interpretada por Roberto Rimoldi Fraga: La defensa de Buenos Aires. Obviamente está dedicada a la 2º Invasión Inglesa al río de la Plata (o mejor dicho, al segundo intento de invasión).

Musicalmente, creo que es destacable no solo su simpleza, sino la manera curiosa en que cambia de clave (Re a Mi) sobre el final. Queda muy bien el punteo final (que me parece fue usado desde qué la música es música, aunque en este momento no pueda recordar donde lo he escuchado antes). Desde el punto de vista histórico, nunca entendí a qué se refiere con eso de "cuentan que se rendían fuera del río"; ¿licencia poética?

Este tema aparece entre los temas recopilados en el album Los Escenciales de Rimoldi Fraga (¿alguien sabe si fue grabado en algún otro disco o por algún otro artista?).

LA DEFENSA DE BUENOS AIRES
Chacarera


Autores: C. Fernández Melo – Roberto Rimoldi Fraga

Introducción
<---- 2x ------->
D A7 D D A7 D
e----------------------------------------
B------------------------------0--2-3----
G-2-----2--------2----2-----2------------
D---5-4----5-2-4--------5-4--------------
A----------------------------------------
E----------------------------------------

O bien

D----------------------------------------
A------------------------------2--4-5----
E-5-3-2-5--3-0-2-5----5-3-2-5------------


D
Una bandera inglesa
E A7
en la Ensenada
Santiago de Liniers
D
sale a toparla.


La lucha del criollaje
se pone fiera
entrando a los corrales
esa bandera.


Hay viene Martín de Alzaga
con los fusiles
abriendo las trincheras
D B7
que el pueblo pide.


E
Andaban los ingleses
F# B7
por el Retiro.
cuentan que se rendían
E
fuera del río.


Se acerca Whitelock;
doce columnas.
Plaza Mayo lo espera
a sable y chuza.

El criollo se defiende
desde azoteas,
la lucha por las calles
se vitorea.

Flameó el setenta y uno
en Santo Domingo.
Desfilo y sin bandera
por ser arisco.

Andaban los ingleses
por el Retiro.
cuentan que se rendían
fuera del río.


Conclusión
D-----------------------------------------
A-2-2-2-4-2-0-----------------------------
E-------------4-2-0-----------------------

No hay comentarios: