domingo, 14 de septiembre de 2008

Unidos

Quería hoy compartir una zamba de la que, debo confesar, me enamoré al escucharla por primera vez; se trata de "Unidos", escrita por Oscar Valles y Hernán Figueroa Reyes. La canción fue grabada por primera vez por el propio Hernán, aunque ignoro en qué disco; sin embargo aparece en algunas recopilaciones de grandes éxitos.

En cuanto al autor de su letra, Oscar Valles, espero poder armar un post en algún momento próximo contando un poco de su increible trayectoria. Solo diré por ahora que la cantidad de canciones y anécdotas que se le atribuyen es proverbial.

De esta zamba en particular, desgraciadamente, conozco muy poco, más allá de que fue escrita en el año 1969. Atención a la letra, que no tiene desperdicio.

Por si alguno no la conoce, los animo a buscarla (anda disponible para bajarla por ahí). Espero poder poner pronto algún video o clip de audio con la canción.

Aquí les dejo la letra y los acordes, listo para cantar la canción en Fa# menor, el tono en que la grabó Figueroa Reyes. También les presento el punteo aproximado (relativamente simple) que oficia de introducción. ¡Qué la disfruten!


UNIDOS

Zamba

Autores: José Hernán Figueroa Reyes / Oscar Valles

Transporte en 2º traste


(Em) B7 B7 Em
e --------------------------------------------
B --------------------------------------------
G -4-5-4-------------2-2-4-2------------------
D --------5-4-2-4------------5-4-5------------
A---------------------------------------------
E --------------------------------------------
Em B7 B7 Em
e --------------------------------------------
B --------------------------------------------
G -4-5-4--------------------------------------
D --------5-4-2-1-----------------------------
A-------------------00---2--2-0---------------
E --------------------333-------3-2-0---------

G (A) Em
Hay un fuego en mi pecho quemando
D7 (B7) Em
que en mi canto quisiera brotar
(E7) Am Em (D7) (C)|
hecho sueño en las guitarras como un símbolo de paz |
B7 Em | Bis
cantando |

Aunque vengan rondando los cuervos
seguiremos luchando hasta el fin
no me asustan con sus picos los que quieran confundir
al pueblo

C (D7) G
Se hace un grito en el himno argentino:
C (A) B7
¡Oh juremos con gloria morir!
(E7) Am Em (D7) (C) |
Sean eternos los laureles que supimos conseguir | Bis
B7 Em |
unidos. |

Que nos dejen a nuestra manera
disfrutando esta tierra de paz
Los que quieran beber sangre que se vayan a pelear
afuera

Si peleamos al fin entre hermanos
serviremos de carne e' cañon
pues la lucha será el odio contra toda la razón
en vano.

Se hace un grito en el himno argentino:
¡Oh juremos con gloria morir!
Sean eternos los laureles que supimos conseguir
unidos.

No hay comentarios: